‘Acoustic Nuggets’ new series premere

Woz Supposedly performs 8 new songs and one surprising cover!
studio audio + dynamic camera angles + glowing costume
(lyrics and tabs included)



Do you want to skip to a certain song? Click the time after it:

1. Fancy Rats 0:00
2. Nothing Feels Good 3:31
3. Nothing Tastes Good 5:27
4. Lay Down, Town 7:16
5. I Drank All Your Modelo 9:01
6. Autumn in the 90’s 10:49
7. Sinkhole 16:07
8. Pink Maggit 18:26
9. Not Going 22:11

headdress courtesy http://illuminatedcouture.com/

fcc music uses
http://gopro.com/
https://apple.com/macbook-pro/
http://m-audio.com/
http://alesis.com/en/index.php
http://takamine.com/
http://cheez-it.com/

 

FANCY RATS
you burned my satanic 8-track tapes, but I still bought them
there’s a universe in a universe but I can’t be bothered
you won’t be home though I just found out today
you won’t be home before I leave again it seems
you won’t be home though I just bought you two fancy rats
if you won’t be home then I’ll feed them
if you won’t be home then I will
I burned my pornagraphic vhs tapes, but I still watched them
there’s a universe in a universe but I can’t be bothered

|-|----5---5---0---4---4---0-0-0-|--0-0-----------|------3-2-2-2-
|-|--6---6---6---6---6---6---1-0-|--1-0-3-3/5---0-|--3-3-----0-0-
|-|--7-----------7-----------0-0-|--0-0-0--0------|--0-0-----0-0-
|-|--------------------------2-2-|--2-2-2--2------|--2-2-----2-2-
|-|--------------------------3-2-|--3-2-3--2------|--3-2-----3-2-
|-|--------------------------0-0-|--0-0-0--0------|--0-0---------

NOTHING FEELS GOOD
won’t you please give me some of that touch
touching on Kentucky Sunday
where nothing feels good
well at least I know, at least I know that it should

|-------------------------
|--2-6---10---------------
|--1-6-2-10-5-3-5-3-2-3-2-
|--3-6-x-10-x-x-x-x-x-x-x-
|--1-4-3-8--6-4-6-4-3-4-3-
|----4-1-8--4-2-4-2-1-2-1-

NOTHING TASTES GOOD
come on baby nothing tastes good
all the leaves on vines well they say no
come on lately nothing tastes good
all the police in my mind say no

|-------------------------------------------------------
|-------------------------------------------------------
|--5--------------3-------3-----------------------------
|--x------10------x-8-8---x-8-8---5-10-10---5---------5-
|--6---10----10---4-6-6---4-6-6---6-8--8----6-10-10---6-
|--4-8----------8-2-----0-2-----0-4-------0-4-8--8--0-4-

LAY DOWN, TOWN
I want to lay down, town
and then I want to lay tracks downtown
only
quiero acostarme abajo, de la ciudad.
(entonces yo) Quiero poner pistas en el centro de la ciudad.
que pueden prestar
que puede prestar

|-------------|--0-1-
|-------------|--0-1-
|--0----------|--0-2-
|--2----------|--2-1-
|--3-3-5-3----|--3-3-
|--0-1-3-1----|--0-1-

I DRANK ALL YOUR MODELO
turn it down now baby turn it down
you know the neighbors think it’s too loud so if I can turn it down
be a town now baby be a town
you know if you don’t want to be a city then don’t try to be a town
be a house now baby be a house
you know if you don’t want to be a home, then don’t try to be a house
or be a town, just turn it down
I don’t understand why you get so loud the moment the sun goes down
so I drank all your Modelo, please forgive me

|----5-------------------------17
|--7-5---3---3---5-3--------10---
|--7-6-7-3-2-3-2-5-3-2-2----10---
|--7-7-6-3-0-3-x-5-3-x-x----10---
|--9-5-8-1-3-1-3-3-1-3-3----8----
|--7---6-1-1-1-1-3-1-1-0/1--8----

AUTUMN IN THE 90’S
In my head I found, there was an earthquake while I slept
and when I woke, I woke to find, nothing was where I left it, yeah
none of my it was where I left it
nothing was where I left it yeah
when I woke, I woke to find, nothing was where I left it, yeah
better better find it, please please find my home
please find it
a tall boy in a tall can, feel like little boy, feel like fat man
have I seen your face? have I seen your face before?
haven’t I been in this place? and haven’t I been in your face?
this town’s been feeling like a barricade
and I be dropping bombs like Enola Gay
can you feel me? it seems to be allowed, but it’s seriously not allowed

|----------------------------------------------------
|----------------------------------------------------
|----------------------------------------------------
|--6-6-6-9-7-6-6h7p6-6---6-6---9-6---------9-6-------
|--7-7-7------------7----7-7-7-7-4-6---7-7-----4-6---
|--9-7-5-----------------5-4-5-----4-5-------------4-

SINKHOLE
where am I going to live? my darling said
my house is falling in a sinkhole
my house is falling in a sinkhole my darling said
where am I going to live? oh no
you held me a lot
I’ll hold you a lot, even in an empty lot
but where am I going to live? my pops he said
my mortgage is the wrong side upwards
I’m barely floating on a raft I made of rubber checks
but where am I going to live? oh no

capo 3rd fret
|----3-5-------------|--4-5-
|--3-5-6---6---6---3-|--6-6-
|--3-3-5-9---9---9---|--5-5-
|--5-5-3-------------|------
|--5-3-3-------------|------
|--3-----------------|------

PINK MAGGIT (Deftones Cover)
I’ll stick you a little just enough to take your oxygen away
I’m so into this whore, afraid I might lose her, so forget about me
because I’ll stick you
push back the square, now that you kneed her in the throat, so there you go, ’cause back in school we are the leaders of all
transpose, or stop your life is what you do.
push back the square, now that you need her but you don’t, so there you go, ’cause back in school we are the leaders of all
all you are, to me, is meat

|-----------------|----------
|-----------------|----------
|----5-0-1-0------|----------
|--6-5-3-----2-11-|----5-----
|--6-3-1-------11-|--6-3-3-2-
|--4-----------9--|--4---1-0-

NOT GOING
I’m not going into space
I’m not going to think about your face
I’m not going to compete in your race
I’m not going
not going.

|------------|--0-|--0-----0-----0-
|------------|--0-|--0-----0-----0-
|----------7-|--6-|--6---2-6---0-0-
|------7---7-|--7-|--7-2---7-2-0-0-
|--7-9---9-9-|--0-|--0-2-3-0-2-3-3-
|------------|--0-|--0-0-1-0-0-1-1-